Comunidad 100% Cristiana

Autor Tema: Abel zavala - "A ti sea la Gloria"  (Leído 1418 veces)

0 Usuarios y 1 Visitante están viendo este tema.

Desconectado musicmark

  • Siervo(a) de Dios
  • *****
  • Mensajes: 461
  • Reputation: +23/-0
  • Sexo: Masculino
  • ((LoS MuSiCoS dE DIOS sOmOs LoS MeJoReS !!!))
    • http://www.dcristo.net  100 % cristianos !!!
    • Email
Abel zavala - "A ti sea la Gloria"
« en: Martes 12 de Dic, 2006, 17:49:27 pm »
estoy tratando de cantar la alabanza de abel zavala " ati sea la gloria" del album guardame en tu presencia;   pero hay unos acordes que no los encuentro me pueden ayudar con alguna tablatura,
 alguien que tenga idea de que tipo de acordes se utilizan!!
que Dios les bendiga !!! :orar: :BangHead:

Desconectado abelozado_1987

  • Simpatizante
  • *
  • Mensajes: 49
  • Reputation: +4/-0
Abel zavala - "A ti sea la Gloria"
« Respuesta #1 en: Martes 12 de Dic, 2006, 21:17:52 pm »
aqui te dejo una de www.lacuerda.net

A tí sea la gloria
AUTOR: Abel zavala
ALBUM: Guardame En Tu Presencia

*Cuando esta la lira electrica con el intro
la acustica marca:

B9 E9 (2)

INTRO en liRa electrica
e----------------
B-----13-9-11----
G--13---------10-
D----------------
A----------------
E----------------

e-------------------------
B-----13-9-11----9--------
G--13---------10---10-8-6-
D-------------------------
A-------------------------
E-------------------------

  B              F#    E          B
No existen más motivos Señor
 B             F#   E      G#m7
venimos hoy rendidos a Ti
             D#m7                     C#m
la única razón de nuestra adoración
             C7
hoy eres Tú
  C#m      D#m    E      F# G#m7
elevamos olor fragante para Ti,
       F#
para Ti.



CORO:
          B          D#m7 G#m7    C#m
Solo a Ti sea la gloria           Señor
        E              F#   B
la alabanza y la adoración
         C#m7
toda rodilla se doble
          Em    Em9     F#
ante el único Rey y Dios.
 
          B          D#m7 G#m7     C#m
Solo a Ti sea la gloria            Señor
       E               F#   B
la alabanza y la adoración
             C#m7
que toda lengua confiese
      Em      Em9   F#
que Tú eres el Señor.

B9 E9 (3) G#m F# E   Em

*En esta parte de la cancion
el primer 13 no se nota mucho,
hasta el segundo, escuchala pa ke le
agarres la onda. :)

e----------------
B-----13-9-11----
G--13---------10-
D----------------
A----------------
E----------------

e-------------------------
B-----13-9-11----9--------
G--13---------10---10-8---
D-------------------------
A-------------------------
E-------------------------

e----------------
B-----13-9-11----
G--13---------10-
D----------------
A----------------
E----------------

e----------------------------
B-----13-14-16-18-16/18-14---
G--13------------------------
D----------------------------
A----------------------------
E----------------------------

*en esta parte en la notacion \"16/18\"
arrastras el dedo del 16 al 18

B9 E9 G#m F# E B
 

Desconectado musicmark

  • Siervo(a) de Dios
  • *****
  • Mensajes: 461
  • Reputation: +23/-0
  • Sexo: Masculino
  • ((LoS MuSiCoS dE DIOS sOmOs LoS MeJoReS !!!))
    • http://www.dcristo.net  100 % cristianos !!!
    • Email
Re: Hermanos ayuda con unos acordes porfavor!!!!!!!
« Respuesta #2 en: Martes 12 de Dic, 2006, 22:06:22 pm »
Grasias hermano emilio que DIOS  te bendiga siempre!! :orar: